одна струна

Песни для гитары на одной струне

Привет всем начинающим гитаристам! Здесь вы найдете песни для гитары на одной струне. На сайте много нот и информации для опытных музыкантов и я подумал собрать мелодии для тех, кто недавно начал заниматься на этом замечательном инструменте. Итак, вперед!

 

 

Бумер

(играть на 1-ой струне)

0-3——3-0——5-3-5-3-5-3-5-3-5-7
0-3——3-0——5-3-5-3-5-3-5-3-5-7

 

Звездные войны — имперский марш

(играть на 6-ой струне)

4—4—4—0—7-4—0—7-4——-11—11—11—12—7-4—0—7-4

 

Жуки — Батарейка

(играть на первой струне)

8-8-8-10-8-7-5—-5-5-5-4-0-1-0—8-8-8-10-8-7-5—-5-5-5-4-0-1-0
8-8-8-10-8-7-5—-5-5-5-4-0-1-0—8-8-8-10-8-7-5-5—5—7-8-7-5
12—10-8-7-5-8—7-8-7-5—12—10-8-7-5-8—7-8-7-5

 

Кузнечик

(играть на первой струне)

5-0-5-0-5-4-4—4-0-4-0-4-5-5
5-0-5-0-5-4-4—4-0-4-0-4-5-5
5-7—777-7-8-888-8-8-7-5-4-5
5-7—777-7-8-888-8-8-7-5-4-5

 

Blur — Song 2

(играть на 6-ой струне)

Х-2-2-X-0-0-0-X
5-5-7-9—9-9-9
Х-2-2-X-0-0-0-X
5-5-7-9—9-9-9

 

Deep Purple — Smoke on the water

(играть на 6-ой струне)

0—3—5—0—3—6-5
0—3—5—3—0

 

The White Stripes — Seven Nation Army

(играть на 6-ой струне)

5—5-8-5-3-1—0—5—5-8-5-3-1—0
5—5-8-5-3-1—0—5—5-8-5-3-1-3-1-0

 

Nirvana — Come as you are

0-0-1-2—5-2-5-2-2-1-0-7-0-0—7
0-1-2—5-2-5-2-2-1-0-7-0-0—7

Король и шут — лесник
----------------------------------------------------------
----------------------------------------8-8-6-6-----------
----5-5-7-7-9-9-----5-5-7-7-9-9-----5-5-------------5-5---
7-7-------------7-7-------------7-7-------------7-7-------
----------------------------------------------------------
----------------------------------------------------------



----------------------------------------------------------
--------8-8-6-6-8-8-6-6-5-5-----8-8-6-6-5-5---------------
----5-5---------------------7-7-------------7-7-----4-4---
7-7---------------------------------------------5-5-------
----------------------------------------------------------
----------------------------------------------------------



----------------------------------------------------------
----------------------------------------------------------
-5-5-7-7-----4-4-5-5-7-7----------------------------------
---------5-5----------------------------------------------
----------------------------------------------------------
----------------------------------------------------------

Mortal Combat

(играть на первой струне)

5-5-8-5-10-5-12-10
8–8-12-8-15-8-12-8
3-3-7-3-10-3-7-3

1-1-5-1-8-1-5-1

5–5–5–5–3-8
5–5–5–5–3-0
5–5–5–5–3-8

5–5–5—5-5—5-5

Linkin Park — In the end

(играть на первой струне)

0—7—7—3—2—2—2—2-3
0—7—7—3—2—2—2—2-3

Imagine Dragons — Believer

(играть на первой струне)

7—7
10-10-9-7-10-10-9-7
7—10—-10-9—6—6

 Nirvana — Smells Like Teen Spirit

(играть на 6-ой струне)

1—1-1—X-X-X-X-6—6-X-X
4—4-4—X-X-X-X-9—9-X-X

Мелодия из к/ф Пираты карибского моря

(играть на первой струне)

0—3—5—5—-5—7—8—8—-8—10—7—7—-5—3—3—5
0—3—5—5—-5—7—8—8—-8—10—7—7—-5—3—5
0—3—5—5—-5—8—10—10—-10—12—13—13—-12-10-12—5
5—7—8—8—10—12—5—-5—8—7—7—-8—5—7

Кино — Кукушка

2—5-9—5—9—7-9-12—7—5-4—5-4-2-0
2—5-9—5—9—7-9-12—7—5-4—5-4-5-7
2—5-9—5—9—7-9-12—7—5-4—5-4-2-0
2—5-9—5—9—7-9-12—7—5-4—7-9—14

Ленинград — В Питере пить

5~4-1-1—5~4-1-7—4-4-4-4-4—2
5~4-1-1—5~4-1-7—4-4-4-4-4—2
5—4-2-7—4—2-1-2—5—4-2-7—4-4-4-4-4—2
5—4-2-7—4—2-1-2—5—4-2-7—4-4-4-4-4—2

 

Поделиться

learn4joy.ru

Добавить комментарий